basso

Parla di Mark / Talk about Mark
ely89
Messaggi: 251
Iscritto il: 01 gen 1970, 01:00
Località: O.O., VA, italia
Contatta:

Messaggio da ely89 » 01 gen 2006, 19:34

mica c'è da ridere... è una brutta cosa!!! [smile]2[/smile] [smile]2[/smile]

green-stella182
Messaggi: 33
Iscritto il: 01 gen 1970, 01:00
Località: Baronissi, SA, Italia
Contatta:

Messaggio da green-stella182 » 06 gen 2006, 00:52

povero cagnolino......[smile]2[/smile] [smile]47[/smile] [smile]47[/smile] è così triste...[smile]41[/smile] sigh...

met182
Messaggi: 198
Iscritto il: 01 gen 1970, 01:00
Località: Fusignano, RA, italia
Contatta:

Messaggio da met182 » 07 gen 2006, 11:37

a me nn frega tanto era anche spelacchiato!

ely89
Messaggi: 251
Iscritto il: 01 gen 1970, 01:00
Località: O.O., VA, italia
Contatta:

Messaggio da ely89 » 08 gen 2006, 00:44

che insensibile... ben tornato...la la la la

met182
Messaggi: 198
Iscritto il: 01 gen 1970, 01:00
Località: Fusignano, RA, italia
Contatta:

Messaggio da met182 » 08 gen 2006, 11:54

ma questo è un sito animalista o che?

ely89
Messaggi: 251
Iscritto il: 01 gen 1970, 01:00
Località: O.O., VA, italia
Contatta:

Messaggio da ely89 » 11 gen 2006, 15:00

cmq sei un insensibile...

met182
Messaggi: 198
Iscritto il: 01 gen 1970, 01:00
Località: Fusignano, RA, italia
Contatta:

Messaggio da met182 » 11 gen 2006, 17:41

ma sai quanti ne muoiono al giorno...? io no però so che 1 in + o uno in - non cambia

ely89
Messaggi: 251
Iscritto il: 01 gen 1970, 01:00
Località: O.O., VA, italia
Contatta:

Messaggio da ely89 » 13 gen 2006, 14:18

INSENSIBILE.... nn credo che mark sia così insensibile... la sua anima è pura come l'acqua... MARK SEI UNICO!!!!

met182
Messaggi: 198
Iscritto il: 01 gen 1970, 01:00
Località: Fusignano, RA, italia
Contatta:

Messaggio da met182 » 13 gen 2006, 19:35

chissà come sta il suo cane

punk 182

Messaggio da punk 182 » 01 feb 2006, 21:34

ma la atticus è propietà di mark e tom vero????[smile]44[/smile]

Avatar utente
Mattia
Site Admin
Messaggi: 4444
Iscritto il: 01 gen 1970, 01:00
Contatta:

Messaggio da Mattia » 02 feb 2006, 12:06

punk 182 ha scritto:ma la atticus è propietà di mark e tom vero????[smile]44[/smile]
Sì, la Atticus e anche la Macbeth. Invece Travis è proprietario della Famous Stars And Straps.

met182
Messaggi: 198
Iscritto il: 01 gen 1970, 01:00
Località: Fusignano, RA, italia
Contatta:

Messaggio da met182 » 19 feb 2006, 21:36

basso?[smile]54[/smile] [smile]54[/smile] [smile]54[/smile] [smile]54[/smile] [smile]54[/smile] [smile]54[/smile]

marissa

Messaggio da marissa » 04 mar 2006, 20:05

Secondo me è un belissimo strumento!Non lo conosco molto bene,suonando il piano,cmq te lo consiglio![smile]25[/smile] Io sono nuova ciao a tutti![smile]48[/smile]

carmy182
Messaggi: 438
Iscritto il: 01 gen 1970, 01:00
Località: Boscoreale , NA, Italia
Contatta:

Messaggio da carmy182 » 04 mar 2006, 20:12

Ciao Marissa ben venuta [smile]5[/smile] Cmq anke x me il basso è un bellissimo strumento anke se preferisco la kitarra!

Avatar utente
Bliss
Messaggi: 383
Iscritto il: 01 gen 1970, 01:00
Contatta:

Messaggio da Bliss » 04 mar 2006, 20:28

Benvenuta Marissa Ankio m sn iscritta da poco!!!!
Anke secondo me il basso è 1bel strumento ma preferisco la kitarra e il pianoforte[smile]42[/smile] W BLINK[smile]16[/smile]
Immagine
Immagine

marissa

Messaggio da marissa » 09 mar 2006, 20:47

Ki è nato il 15 marzo?Fra un pò è l mio complex e quello di Mark,solo ke lui ne compie 34 e io 15!C'è una bella differenza![smile]15[/smile]

punk 182

Messaggio da punk 182 » 10 mar 2006, 17:45

il basso non è uno strumento da sottovalutare!!!senza il basso la canzone suonerebbe molto diversa, anche se di primo impatto non si sente, poi come lo suona mark e in quasi tutti i gruppi punk non è solamente da accompagnamento ma alcune volte viene usato come una chitarra!!![smile]6[/smile]

MarkBlink182
Messaggi: 64
Iscritto il: 01 gen 1970, 01:00
Località: Lentini, SR, Italia
Contatta:

Messaggio da MarkBlink182 » 26 mar 2006, 11:55

Ciao a tutti ragazzi!..un pò d tempo fa vi avevo detto se qualcuno d voi avesse la TABLATURA d "Not Now" x il Basso,xkè io nn l'avevo trovata da nessuna parte su internet!...allora ho deciso d cimentarmi io sulla realizzazione della tablatura!...no skerzo!!! ...tramite un mio amico ho avuto la tablatura eccola:
Gruppo: Blink-182
Album: Greatest Hits
Canzone: Not Now

Intro(00:50)
|----------------------------------------------------------------|
|----------------------------------------------------------------|
|-222-555-00000000-----------------------------------------------|x4
|-----------------3333-5-3-22222222------------------------------|

Verse(01:08)
|---------------|
|---------------|
|---555555555555|x4
|---------------|

Pre Chorus(01:26)
|----------------------------------------------------------------|
|----------------------------------------------------------------|
|-555555555555-7777777777777777----------------------------------|x2
|------------------------------2222222222222222-3333333333333333-|

Chorus(01:44)
|-------------------------------------------------|
|-------------------------------------------------|
|-/55555555554-000000000054/222222222254--------5-|x1
|---------------------------------------33333333--|

Pre Verse(01:53)
|-------------------------------------------------|
|-------------------------------------------------|
|-222-555-0000000---------------------------------|x2
|----------------3333-5-3-2222222222--------------|

Verse(02:02)
|--------------|
|--------------|
|-5555555555555|x4
|--------------|

Chorus(02:20)
|-----------------------------------------------------------|
|-----------------------------------------------5555-5h7p5--|
|-/55555555554-000000000054/222222222254--------------------|x1
|---------------------------------------33333333------------|

then...

Chorus(01:44)
|---------------------------------------------------------------|
|----------------------------------------7777777777-5555555555--|
|-/55555555554-000000000054/222222222254------------------------|x1
|---------------------------------------------------------------|

Bridge(02:39)
|-----------| |-----------------------------------------------|
|-----------| |-----------------------------------------------|
|-5555555555|x1 |222-555-0000000000-----------------------------|
|-----------| |------------------3333-5-3-2222222222--------- |

Chorus(03:01) (do this sequence twice)
|-----------------------------------------------------------|
|-----------------------------------------------5555-5h7p5--|
|-/55555555554-000000000054/222222222254--------------------|x1
|---------------------------------------33333333------------|

|---------------------------------------------------------------|
|----------------------------------------7777777777-5555555555--|
|-/55555555554-000000000054/222222222254------------------------|x1
|---------------------------------------------------------------|

Outro (03:37)
|---------------------------------------| |------------------------------|
|---------------------------------------| |------------------------------|
|-222-555-0000000000--------------------|x4 |-222222222-55555555-00000000--|x1
|-------------------3333-5-3-2222222222-| |------------------------------|

LBY 93
Messaggi: 355
Iscritto il: 01 gen 1970, 01:00
Località: springfild
Contatta:

Re: basso

Messaggio da LBY 93 » 08 gen 2008, 22:22

io ho un sojing(marac del cazzo) nero cn placca bianca usato=65 euro con 2 file d pick up..
ricoperto d adesivi tipo la fender di billie joe(anke meglio)
amply warwick blue cabe da 15 wat a 115 euro.. :!:

salvolux
Messaggi: 24
Iscritto il: 31 gen 2010, 14:27

Re: basso

Messaggio da salvolux » 12 feb 2010, 04:58

e nessuno ti ha dato il nome di un modello di basso..hahaha...cmq...è logico che non puoi iniziare con il mark hoppus precision bass...comunque se ci vuoi spendere un bel po di soldini per questo basso che vuoi comprare comprati direttamente quello...invece se vuoi spendere poco...compra uno squier( che è sempre della fender)...jazz bass..modello standard pero...non attitude o vintage per carita...con questo basso potrai suonare e esplorare qualsiasi tipo di musica...ed è il basso giusto se vuoi il suono piu vicino possibile a quello di mark...come si ottiene quel suono?...apri la manopola dei toni al massimo...(quindi che si sentano tutti gli alti)...chiudi la manopola del pick up del ponte...non lo devi proprio usare quel pick up...aprilo solo se suoni con le dita...e apri tutta la manopola del pick up vicino al manico...poi monta a quel basso corde ernie ball pacco rosa...e usa un plettro da un millimetro di plastica dura..non morbida ne di carbonio...ora...divertiti... :D

Rispondi